ISO-10303-21;
HEADER;
FILE_DESCRIPTION(('CATIA V5 STEP Exchange'),'2;1');

FILE_NAME('C:\\Users\\Astroboy\\Desktop\\RIDIX\\30_SCORRIMENTI_ISO\\30_ACCESSORI\\RDRR300\\STEP\\RDRR300.stp','2017-03-17T20:50:54+00:00',('none'),('none'),'CATIA Version 5 Release 19 GA (IN-10)','CATIA V5 STEP AP203','none');

FILE_SCHEMA(('CONFIG_CONTROL_DESIGN'));

ENDSEC;
/* file written by CATIA V5R19 */
DATA;
#5=PRODUCT('RDRR300','','S 23 ISO\X2\000D\X0\\X2\000A\X0\SCORRIMENTI ISO\X2\000D\X0\\X2\000A\X0\',(#2)) ;
#1=APPLICATION_CONTEXT('configuration controlled 3D design of mechanical parts and assemblies') ;
#14=PRODUCT_DEFINITION('',' ',#6,#3) ;
#16=SECURITY_CLASSIFICATION(' ',' ',#15) ;
#15=SECURITY_CLASSIFICATION_LEVEL('unclassified') ;
#47=CARTESIAN_POINT(' ',(0.,0.,0.)) ;
#51=CARTESIAN_POINT('Line Origine',(0.,0.,0.)) ;
#55=CARTESIAN_POINT('Limit',(0.,0.,0.)) ;
#56=CARTESIAN_POINT('Limit',(20.,0.,0.)) ;
#63=CARTESIAN_POINT('Line Origine',(0.,0.,0.)) ;
#67=CARTESIAN_POINT('Limit',(0.,0.,0.)) ;
#68=CARTESIAN_POINT('Limit',(0.,20.,0.)) ;
#72=CARTESIAN_POINT('Line Origine',(0.,0.,0.)) ;
#76=CARTESIAN_POINT('Limit',(0.,0.,0.)) ;
#77=CARTESIAN_POINT('Limit',(0.,0.,20.)) ;
#81=CARTESIAN_POINT('Punto.4',(0.,0.,0.)) ;
#83=CARTESIAN_POINT('Axis2P3D Location',(0.,0.,-5.50000000002)) ;
#88=CARTESIAN_POINT('Axis2P3D Location',(0.,0.,-2.6645352591E-015)) ;
#92=CARTESIAN_POINT('Vertex',(-4.8267040904,2.63684046232,-2.6645352591E-015)) ;
#94=CARTESIAN_POINT('Vertex',(4.8267040904,-2.63684046232,-2.6645352591E-015)) ;
#97=CARTESIAN_POINT('Line Origine',(-4.8267040904,2.63684046232,-3.5)) ;
#101=CARTESIAN_POINT('Vertex',(-4.8267040904,2.63684046232,-7.)) ;
#104=CARTESIAN_POINT('Axis2P3D Location',(0.,0.,-7.)) ;
#108=CARTESIAN_POINT('Vertex',(4.8267040904,-2.63684046232,-7.)) ;
#111=CARTESIAN_POINT('Line Origine',(4.8267040904,-2.63684046232,-3.5)) ;
#123=CARTESIAN_POINT('Axis2P3D Location',(-11.5,0.,0.)) ;
#128=CARTESIAN_POINT('Line Origine',(8.,0.,0.)) ;
#132=CARTESIAN_POINT('Vertex',(8.,-8.26135582093,-1.7763568394E-015)) ;
#134=CARTESIAN_POINT('Vertex',(8.,8.26135582093,-1.7763568394E-015)) ;
#137=CARTESIAN_POINT('Axis2P3D Location',(0.,0.,0.)) ;
#141=CARTESIAN_POINT('Vertex',(-10.0921994617,5.51339369395,-1.7763568394E-015)) ;
#144=CARTESIAN_POINT('Axis2P3D Location',(0.,0.,0.)) ;
#154=CARTESIAN_POINT('Axis2P3D Location',(0.,0.,0.)) ;
#164=CARTESIAN_POINT('Axis2P3D Location',(0.,0.,-7.)) ;
#176=CARTESIAN_POINT('Axis2P3D Location',(-5.5,0.,-7.)) ;
#185=CARTESIAN_POINT('Axis2P3D Location',(0.,0.,-7.)) ;
#189=CARTESIAN_POINT('Vertex',(3.07153896662,-1.67798938511,-7.)) ;
#191=CARTESIAN_POINT('Vertex',(-3.07153896662,1.67798938511,-7.)) ;
#194=CARTESIAN_POINT('Axis2P3D Location',(0.,0.,-7.)) ;
#204=CARTESIAN_POINT('Axis2P3D Location',(0.,0.,-5.50000000002)) ;
#209=CARTESIAN_POINT('Line Origine',(-10.0921994617,5.51339369395,-2.6)) ;
#213=CARTESIAN_POINT('Vertex',(-10.0921994617,5.51339369395,-5.2)) ;
#216=CARTESIAN_POINT('Axis2P3D Location',(0.,0.,-5.2)) ;
#220=CARTESIAN_POINT('Vertex',(8.,-8.26135582093,-5.2)) ;
#223=CARTESIAN_POINT('Line Origine',(8.,-8.26135582093,-2.6)) ;
#235=CARTESIAN_POINT('Axis2P3D Location',(0.,0.,-5.2)) ;
#239=CARTESIAN_POINT('Vertex',(8.,8.26135582093,-5.2)) ;
#242=CARTESIAN_POINT('Line Origine',(8.,8.26135582093,-2.6)) ;
#254=CARTESIAN_POINT('Axis2P3D Location',(0.,0.,-5.50000000002)) ;
#259=CARTESIAN_POINT('Line Origine',(-3.07153896662,1.67798938511,-9.)) ;
#263=CARTESIAN_POINT('Vertex',(-3.07153896662,1.67798938511,-11.)) ;
#266=CARTESIAN_POINT('Axis2P3D Location',(0.,0.,-11.)) ;
#270=CARTESIAN_POINT('Vertex',(3.07153896662,-1.67798938511,-11.)) ;
#273=CARTESIAN_POINT('Line Origine',(3.07153896662,-1.67798938511,-9.)) ;
#285=CARTESIAN_POINT('Axis2P3D Location',(0.,0.,-11.)) ;
#297=CARTESIAN_POINT('Axis2P3D Location',(-8.,0.,-5.2)) ;
#302=CARTESIAN_POINT('Line Origine',(8.,4.13067791046,-5.2)) ;
#306=CARTESIAN_POINT('Vertex',(8.,1.95937016612E-015,-5.2)) ;
#309=CARTESIAN_POINT('Axis2P3D Location',(0.,0.,-5.2)) ;
#313=CARTESIAN_POINT('Vertex',(-7.02066049512,3.83540430883,-5.2)) ;
#316=CARTESIAN_POINT('Axis2P3D Location',(0.,0.,-5.2)) ;
#320=CARTESIAN_POINT('Vertex',(7.02066049512,-3.83540430883,-5.2)) ;
#323=CARTESIAN_POINT('Axis2P3D Location',(0.,0.,-5.2)) ;
#328=CARTESIAN_POINT('Line Origine',(8.,-4.13067791046,-5.2)) ;
#343=CARTESIAN_POINT('Axis2P3D Location',(-3.5,0.,-11.)) ;
#348=CARTESIAN_POINT('Axis2P3D Location',(0.,0.,-11.)) ;
#352=CARTESIAN_POINT('Vertex',(7.02066049512,-3.83540430883,-11.)) ;
#354=CARTESIAN_POINT('Vertex',(-7.02066049512,3.83540430883,-11.)) ;
#357=CARTESIAN_POINT('Axis2P3D Location',(0.,0.,-11.)) ;
#371=CARTESIAN_POINT('Axis2P3D Location',(0.,0.,-5.50000000002)) ;
#376=CARTESIAN_POINT('Line Origine',(-7.02066049512,3.83540430883,-8.1)) ;
#381=CARTESIAN_POINT('Line Origine',(7.02066049512,-3.83540430883,-8.1)) ;
#401=CARTESIAN_POINT('Axis2P3D Location',(8.,0.,10.)) ;
#52=DIRECTION('Vector Direction',(1.,0.,0.)) ;
#64=DIRECTION('Vector Direction',(0.,1.,0.)) ;
#73=DIRECTION('Vector Direction',(0.,0.,1.)) ;
#84=DIRECTION('Axis2P3D Direction',(0.,0.,-1.)) ;
#85=DIRECTION('Axis2P3D XDirection',(0.87758256189,-0.479425538604,0.)) ;
#89=DIRECTION('Axis2P3D Direction',(0.,0.,-1.)) ;
#98=DIRECTION('Vector Direction',(0.,0.,-1.)) ;
#105=DIRECTION('Axis2P3D Direction',(0.,0.,-1.)) ;
#112=DIRECTION('Vector Direction',(0.,0.,-1.)) ;
#124=DIRECTION('Axis2P3D Direction',(0.,0.,-1.)) ;
#125=DIRECTION('Axis2P3D XDirection',(1.,0.,0.)) ;
#129=DIRECTION('Vector Direction',(0.,1.,0.)) ;
#138=DIRECTION('Axis2P3D Direction',(0.,0.,-1.)) ;
#145=DIRECTION('Axis2P3D Direction',(0.,0.,-1.)) ;
#155=DIRECTION('Axis2P3D Direction',(0.,0.,-1.)) ;
#165=DIRECTION('Axis2P3D Direction',(0.,0.,-1.)) ;
#177=DIRECTION('Axis2P3D Direction',(0.,0.,-1.)) ;
#178=DIRECTION('Axis2P3D XDirection',(1.,0.,0.)) ;
#186=DIRECTION('Axis2P3D Direction',(0.,0.,-1.)) ;
#195=DIRECTION('Axis2P3D Direction',(0.,0.,-1.)) ;
#205=DIRECTION('Axis2P3D Direction',(0.,0.,-1.)) ;
#206=DIRECTION('Axis2P3D XDirection',(-0.87758256189,0.479425538604,-0.)) ;
#210=DIRECTION('Vector Direction',(0.,0.,-1.)) ;
#217=DIRECTION('Axis2P3D Direction',(0.,0.,-1.)) ;
#224=DIRECTION('Vector Direction',(0.,0.,-1.)) ;
#236=DIRECTION('Axis2P3D Direction',(0.,0.,-1.)) ;
#243=DIRECTION('Vector Direction',(0.,0.,-1.)) ;
#255=DIRECTION('Axis2P3D Direction',(0.,0.,-1.)) ;
#256=DIRECTION('Axis2P3D XDirection',(0.87758256189,-0.479425538604,0.)) ;
#260=DIRECTION('Vector Direction',(0.,0.,-1.)) ;
#267=DIRECTION('Axis2P3D Direction',(0.,0.,-1.)) ;
#274=DIRECTION('Vector Direction',(0.,0.,-1.)) ;
#286=DIRECTION('Axis2P3D Direction',(0.,0.,-1.)) ;
#298=DIRECTION('Axis2P3D Direction',(0.,0.,-1.)) ;
#299=DIRECTION('Axis2P3D XDirection',(1.,0.,0.)) ;
#303=DIRECTION('Vector Direction',(0.,1.,0.)) ;
#310=DIRECTION('Axis2P3D Direction',(0.,0.,-1.)) ;
#317=DIRECTION('Axis2P3D Direction',(0.,0.,-1.)) ;
#324=DIRECTION('Axis2P3D Direction',(0.,0.,-1.)) ;
#329=DIRECTION('Vector Direction',(0.,1.,0.)) ;
#344=DIRECTION('Axis2P3D Direction',(0.,0.,-1.)) ;
#345=DIRECTION('Axis2P3D XDirection',(1.,0.,0.)) ;
#349=DIRECTION('Axis2P3D Direction',(0.,0.,-1.)) ;
#358=DIRECTION('Axis2P3D Direction',(0.,0.,-1.)) ;
#372=DIRECTION('Axis2P3D Direction',(0.,0.,-1.)) ;
#373=DIRECTION('Axis2P3D XDirection',(0.87758256189,-0.479425538604,0.)) ;
#377=DIRECTION('Vector Direction',(0.,0.,-1.)) ;
#382=DIRECTION('Vector Direction',(0.,0.,-1.)) ;
#402=DIRECTION('Axis2P3D Direction',(1.,0.,0.)) ;
#403=DIRECTION('Axis2P3D XDirection',(0.,1.,0.)) ;
#48=AXIS2_PLACEMENT_3D(' ',#47,$,$) ;
#86=AXIS2_PLACEMENT_3D('Cylinder Axis2P3D',#83,#84,#85) ;
#90=AXIS2_PLACEMENT_3D('Circle Axis2P3D',#88,#89,$) ;
#106=AXIS2_PLACEMENT_3D('Circle Axis2P3D',#104,#105,$) ;
#126=AXIS2_PLACEMENT_3D('Plane Axis2P3D',#123,#124,#125) ;
#139=AXIS2_PLACEMENT_3D('Circle Axis2P3D',#137,#138,$) ;
#146=AXIS2_PLACEMENT_3D('Circle Axis2P3D',#144,#145,$) ;
#156=AXIS2_PLACEMENT_3D('Circle Axis2P3D',#154,#155,$) ;
#166=AXIS2_PLACEMENT_3D('Circle Axis2P3D',#164,#165,$) ;
#179=AXIS2_PLACEMENT_3D('Plane Axis2P3D',#176,#177,#178) ;
#187=AXIS2_PLACEMENT_3D('Circle Axis2P3D',#185,#186,$) ;
#196=AXIS2_PLACEMENT_3D('Circle Axis2P3D',#194,#195,$) ;
#207=AXIS2_PLACEMENT_3D('Cylinder Axis2P3D',#204,#205,#206) ;
#218=AXIS2_PLACEMENT_3D('Circle Axis2P3D',#216,#217,$) ;
#237=AXIS2_PLACEMENT_3D('Circle Axis2P3D',#235,#236,$) ;
#257=AXIS2_PLACEMENT_3D('Cylinder Axis2P3D',#254,#255,#256) ;
#268=AXIS2_PLACEMENT_3D('Circle Axis2P3D',#266,#267,$) ;
#287=AXIS2_PLACEMENT_3D('Circle Axis2P3D',#285,#286,$) ;
#300=AXIS2_PLACEMENT_3D('Plane Axis2P3D',#297,#298,#299) ;
#311=AXIS2_PLACEMENT_3D('Circle Axis2P3D',#309,#310,$) ;
#318=AXIS2_PLACEMENT_3D('Circle Axis2P3D',#316,#317,$) ;
#325=AXIS2_PLACEMENT_3D('Circle Axis2P3D',#323,#324,$) ;
#346=AXIS2_PLACEMENT_3D('Plane Axis2P3D',#343,#344,#345) ;
#350=AXIS2_PLACEMENT_3D('Circle Axis2P3D',#348,#349,$) ;
#359=AXIS2_PLACEMENT_3D('Circle Axis2P3D',#357,#358,$) ;
#374=AXIS2_PLACEMENT_3D('Cylinder Axis2P3D',#371,#372,#373) ;
#404=AXIS2_PLACEMENT_3D('Plane Axis2P3D',#401,#402,#403) ;
#40=PRODUCT_DEFINITION_SHAPE(' ',' ',#14) ;
#59=COMPOSITE_CURVE('Linea.1',(#58),.U.) ;
#71=COMPOSITE_CURVE('Linea.2',(#70),.U.) ;
#80=COMPOSITE_CURVE('Linea.3',(#79),.U.) ;
#58=COMPOSITE_CURVE_SEGMENT(.DISCONTINUOUS.,.T.,#57) ;
#70=COMPOSITE_CURVE_SEGMENT(.DISCONTINUOUS.,.T.,#69) ;
#79=COMPOSITE_CURVE_SEGMENT(.DISCONTINUOUS.,.T.,#78) ;
#31=APPROVAL_PERSON_ORGANIZATION(#25,#21,#19) ;
#25=PERSON_AND_ORGANIZATION(#22,#23) ;
#22=PERSON(' ',' ',' ',$,$,$) ;
#23=ORGANIZATION(' ',' ',' ') ;
#21=APPROVAL(#20,' ') ;
#20=APPROVAL_STATUS('not_yet_approved') ;
#19=APPROVAL_ROLE('APPROVER') ;
#13=DATE_AND_TIME(#11,#12) ;
#12=LOCAL_TIME(21,50,54.,#10) ;
#10=COORDINATED_UNIVERSAL_TIME_OFFSET(0,0,.AHEAD.) ;
#117=ORIENTED_EDGE('',*,*,#96,.F.) ;
#118=ORIENTED_EDGE('',*,*,#103,.T.) ;
#119=ORIENTED_EDGE('',*,*,#110,.T.) ;
#120=ORIENTED_EDGE('',*,*,#115,.F.) ;
#150=ORIENTED_EDGE('',*,*,#136,.T.) ;
#151=ORIENTED_EDGE('',*,*,#143,.F.) ;
#152=ORIENTED_EDGE('',*,*,#148,.F.) ;
#160=ORIENTED_EDGE('',*,*,#158,.T.) ;
#161=ORIENTED_EDGE('',*,*,#96,.T.) ;
#170=ORIENTED_EDGE('',*,*,#158,.F.) ;
#171=ORIENTED_EDGE('',*,*,#115,.T.) ;
#172=ORIENTED_EDGE('',*,*,#168,.T.) ;
#173=ORIENTED_EDGE('',*,*,#103,.F.) ;
#182=ORIENTED_EDGE('',*,*,#110,.F.) ;
#183=ORIENTED_EDGE('',*,*,#168,.F.) ;
#200=ORIENTED_EDGE('',*,*,#193,.T.) ;
#201=ORIENTED_EDGE('',*,*,#198,.T.) ;
#229=ORIENTED_EDGE('',*,*,#148,.T.) ;
#230=ORIENTED_EDGE('',*,*,#215,.F.) ;
#231=ORIENTED_EDGE('',*,*,#222,.F.) ;
#232=ORIENTED_EDGE('',*,*,#227,.F.) ;
#248=ORIENTED_EDGE('',*,*,#241,.F.) ;
#249=ORIENTED_EDGE('',*,*,#215,.T.) ;
#250=ORIENTED_EDGE('',*,*,#143,.T.) ;
#251=ORIENTED_EDGE('',*,*,#246,.T.) ;
#279=ORIENTED_EDGE('',*,*,#198,.F.) ;
#280=ORIENTED_EDGE('',*,*,#265,.T.) ;
#281=ORIENTED_EDGE('',*,*,#272,.T.) ;
#282=ORIENTED_EDGE('',*,*,#277,.F.) ;
#291=ORIENTED_EDGE('',*,*,#193,.F.) ;
#292=ORIENTED_EDGE('',*,*,#277,.T.) ;
#293=ORIENTED_EDGE('',*,*,#289,.T.) ;
#294=ORIENTED_EDGE('',*,*,#265,.F.) ;
#334=ORIENTED_EDGE('',*,*,#222,.T.) ;
#335=ORIENTED_EDGE('',*,*,#241,.T.) ;
#336=ORIENTED_EDGE('',*,*,#308,.F.) ;
#337=ORIENTED_EDGE('',*,*,#315,.F.) ;
#338=ORIENTED_EDGE('',*,*,#322,.F.) ;
#339=ORIENTED_EDGE('',*,*,#327,.F.) ;
#340=ORIENTED_EDGE('',*,*,#332,.F.) ;
#363=ORIENTED_EDGE('',*,*,#356,.T.) ;
#364=ORIENTED_EDGE('',*,*,#361,.T.) ;
#367=ORIENTED_EDGE('',*,*,#272,.F.) ;
#368=ORIENTED_EDGE('',*,*,#289,.F.) ;
#387=ORIENTED_EDGE('',*,*,#361,.F.) ;
#388=ORIENTED_EDGE('',*,*,#380,.T.) ;
#389=ORIENTED_EDGE('',*,*,#315,.T.) ;
#390=ORIENTED_EDGE('',*,*,#327,.T.) ;
#391=ORIENTED_EDGE('',*,*,#385,.F.) ;
#395=ORIENTED_EDGE('',*,*,#356,.F.) ;
#396=ORIENTED_EDGE('',*,*,#385,.T.) ;
#397=ORIENTED_EDGE('',*,*,#322,.T.) ;
#398=ORIENTED_EDGE('',*,*,#380,.F.) ;
#407=ORIENTED_EDGE('',*,*,#308,.T.) ;
#408=ORIENTED_EDGE('',*,*,#246,.F.) ;
#409=ORIENTED_EDGE('',*,*,#136,.F.) ;
#410=ORIENTED_EDGE('',*,*,#227,.T.) ;
#411=ORIENTED_EDGE('',*,*,#332,.T.) ;
#162=FACE_BOUND('',#159,.T.) ;
#202=FACE_BOUND('',#199,.T.) ;
#369=FACE_BOUND('',#366,.T.) ;
#82=CLOSED_SHELL('Closed Shell',(#122,#163,#175,#203,#234,#253,#284,#296,#342,#370,#393,#400,#413)) ;
#53=VECTOR('Line Direction',#52,1.) ;
#65=VECTOR('Line Direction',#64,1.) ;
#74=VECTOR('Line Direction',#73,1.) ;
#99=VECTOR('Line Direction',#98,1.) ;
#113=VECTOR('Line Direction',#112,1.) ;
#130=VECTOR('Line Direction',#129,1.) ;
#211=VECTOR('Line Direction',#210,1.) ;
#225=VECTOR('Line Direction',#224,1.) ;
#244=VECTOR('Line Direction',#243,1.) ;
#261=VECTOR('Line Direction',#260,1.) ;
#275=VECTOR('Line Direction',#274,1.) ;
#304=VECTOR('Line Direction',#303,1.) ;
#330=VECTOR('Line Direction',#329,1.) ;
#378=VECTOR('Line Direction',#377,1.) ;
#383=VECTOR('Line Direction',#382,1.) ;
#415=ADVANCED_BREP_SHAPE_REPRESENTATION('NONE',(#414),#46) ;
#49=SHAPE_REPRESENTATION(' ',(#48),#46) ;
#122=ADVANCED_FACE('PartBody',(#121),#87,.F.) ;
#163=ADVANCED_FACE('PartBody',(#153,#162),#127,.F.) ;
#175=ADVANCED_FACE('PartBody',(#174),#87,.F.) ;
#203=ADVANCED_FACE('PartBody',(#184,#202),#180,.F.) ;
#234=ADVANCED_FACE('PartBody',(#233),#208,.T.) ;
#253=ADVANCED_FACE('PartBody',(#252),#208,.T.) ;
#284=ADVANCED_FACE('PartBody',(#283),#258,.F.) ;
#296=ADVANCED_FACE('PartBody',(#295),#258,.F.) ;
#342=ADVANCED_FACE('PartBody',(#341),#301,.T.) ;
#370=ADVANCED_FACE('PartBody',(#365,#369),#347,.T.) ;
#393=ADVANCED_FACE('PartBody',(#392),#375,.T.) ;
#400=ADVANCED_FACE('PartBody',(#399),#375,.T.) ;
#413=ADVANCED_FACE('PartBody',(#412),#405,.T.) ;
#4=APPLICATION_PROTOCOL_DEFINITION('international standard','config_control_design',1994,#1) ;
#32=APPROVAL_DATE_TIME(#13,#21) ;
#414=MANIFOLD_SOLID_BREP('PartBody',#82) ;
#11=CALENDAR_DATE(2017,17,3) ;
#30=CC_DESIGN_APPROVAL(#21,(#16,#6,#14)) ;
#18=CC_DESIGN_DATE_AND_TIME_ASSIGNMENT(#13,#17,(#16)) ;
#29=CC_DESIGN_DATE_AND_TIME_ASSIGNMENT(#13,#28,(#14)) ;
#17=DATE_TIME_ROLE('classification_date') ;
#28=DATE_TIME_ROLE('creation_date') ;
#27=CC_DESIGN_PERSON_AND_ORGANIZATION_ASSIGNMENT(#25,#26,(#16)) ;
#33=CC_DESIGN_PERSON_AND_ORGANIZATION_ASSIGNMENT(#25,#34,(#6)) ;
#35=CC_DESIGN_PERSON_AND_ORGANIZATION_ASSIGNMENT(#25,#36,(#6,#14)) ;
#37=CC_DESIGN_PERSON_AND_ORGANIZATION_ASSIGNMENT(#25,#38,(#5)) ;
#26=PERSON_AND_ORGANIZATION_ROLE('classification_officer') ;
#34=PERSON_AND_ORGANIZATION_ROLE('design_supplier') ;
#36=PERSON_AND_ORGANIZATION_ROLE('creator') ;
#38=PERSON_AND_ORGANIZATION_ROLE('design_owner') ;
#39=CC_DESIGN_SECURITY_CLASSIFICATION(#16,(#6)) ;
#91=CIRCLE('generated circle',#90,5.5) ;
#107=CIRCLE('generated circle',#106,5.5) ;
#140=CIRCLE('generated circle',#139,11.5) ;
#147=CIRCLE('generated circle',#146,11.5) ;
#157=CIRCLE('generated circle',#156,5.5) ;
#167=CIRCLE('generated circle',#166,5.5) ;
#188=CIRCLE('generated circle',#187,3.5) ;
#197=CIRCLE('generated circle',#196,3.5) ;
#219=CIRCLE('generated circle',#218,11.5) ;
#238=CIRCLE('generated circle',#237,11.5) ;
#269=CIRCLE('generated circle',#268,3.5) ;
#288=CIRCLE('generated circle',#287,3.5) ;
#312=CIRCLE('generated circle',#311,8.) ;
#319=CIRCLE('generated circle',#318,8.) ;
#326=CIRCLE('generated circle',#325,8.) ;
#351=CIRCLE('generated circle',#350,8.) ;
#360=CIRCLE('generated circle',#359,8.) ;
#62=SHAPE_REPRESENTATION_RELATIONSHIP(' ',' ',#49,#60) ;
#416=SHAPE_REPRESENTATION_RELATIONSHIP(' ',' ',#49,#415) ;
#87=CYLINDRICAL_SURFACE('generated cylinder',#86,5.5) ;
#208=CYLINDRICAL_SURFACE('generated cylinder',#207,11.5) ;
#258=CYLINDRICAL_SURFACE('generated cylinder',#257,3.5) ;
#375=CYLINDRICAL_SURFACE('generated cylinder',#374,8.) ;
#3=DESIGN_CONTEXT(' ',#1,'design') ;
#96=EDGE_CURVE('',#93,#95,#91,.T.) ;
#103=EDGE_CURVE('',#93,#102,#100,.T.) ;
#110=EDGE_CURVE('',#102,#109,#107,.T.) ;
#115=EDGE_CURVE('',#95,#109,#114,.T.) ;
#136=EDGE_CURVE('',#133,#135,#131,.T.) ;
#143=EDGE_CURVE('',#142,#135,#140,.T.) ;
#148=EDGE_CURVE('',#133,#142,#147,.T.) ;
#158=EDGE_CURVE('',#95,#93,#157,.T.) ;
#168=EDGE_CURVE('',#109,#102,#167,.T.) ;
#193=EDGE_CURVE('',#190,#192,#188,.T.) ;
#198=EDGE_CURVE('',#192,#190,#197,.T.) ;
#215=EDGE_CURVE('',#214,#142,#212,.F.) ;
#222=EDGE_CURVE('',#221,#214,#219,.T.) ;
#227=EDGE_CURVE('',#133,#221,#226,.T.) ;
#241=EDGE_CURVE('',#214,#240,#238,.T.) ;
#246=EDGE_CURVE('',#135,#240,#245,.T.) ;
#265=EDGE_CURVE('',#192,#264,#262,.T.) ;
#272=EDGE_CURVE('',#264,#271,#269,.T.) ;
#277=EDGE_CURVE('',#190,#271,#276,.T.) ;
#289=EDGE_CURVE('',#271,#264,#288,.T.) ;
#308=EDGE_CURVE('',#307,#240,#305,.T.) ;
#315=EDGE_CURVE('',#314,#307,#312,.T.) ;
#322=EDGE_CURVE('',#321,#314,#319,.T.) ;
#327=EDGE_CURVE('',#307,#321,#326,.T.) ;
#332=EDGE_CURVE('',#221,#307,#331,.T.) ;
#356=EDGE_CURVE('',#353,#355,#351,.T.) ;
#361=EDGE_CURVE('',#355,#353,#360,.T.) ;
#380=EDGE_CURVE('',#355,#314,#379,.F.) ;
#385=EDGE_CURVE('',#353,#321,#384,.F.) ;
#116=EDGE_LOOP('',(#117,#118,#119,#120)) ;
#149=EDGE_LOOP('',(#150,#151,#152)) ;
#159=EDGE_LOOP('',(#160,#161)) ;
#169=EDGE_LOOP('',(#170,#171,#172,#173)) ;
#181=EDGE_LOOP('',(#182,#183)) ;
#199=EDGE_LOOP('',(#200,#201)) ;
#228=EDGE_LOOP('',(#229,#230,#231,#232)) ;
#247=EDGE_LOOP('',(#248,#249,#250,#251)) ;
#278=EDGE_LOOP('',(#279,#280,#281,#282)) ;
#290=EDGE_LOOP('',(#291,#292,#293,#294)) ;
#333=EDGE_LOOP('',(#334,#335,#336,#337,#338,#339,#340)) ;
#362=EDGE_LOOP('',(#363,#364)) ;
#366=EDGE_LOOP('',(#367,#368)) ;
#386=EDGE_LOOP('',(#387,#388,#389,#390,#391)) ;
#394=EDGE_LOOP('',(#395,#396,#397,#398)) ;
#406=EDGE_LOOP('',(#407,#408,#409,#410,#411)) ;
#121=FACE_OUTER_BOUND('',#116,.T.) ;
#153=FACE_OUTER_BOUND('',#149,.T.) ;
#174=FACE_OUTER_BOUND('',#169,.T.) ;
#184=FACE_OUTER_BOUND('',#181,.T.) ;
#233=FACE_OUTER_BOUND('',#228,.T.) ;
#252=FACE_OUTER_BOUND('',#247,.T.) ;
#283=FACE_OUTER_BOUND('',#278,.T.) ;
#295=FACE_OUTER_BOUND('',#290,.T.) ;
#341=FACE_OUTER_BOUND('',#333,.T.) ;
#365=FACE_OUTER_BOUND('',#362,.T.) ;
#392=FACE_OUTER_BOUND('',#386,.T.) ;
#399=FACE_OUTER_BOUND('',#394,.T.) ;
#412=FACE_OUTER_BOUND('',#406,.T.) ;
#61=GEOMETRIC_SET('NONE',(#59,#71,#80,#81)) ;
#60=GEOMETRICALLY_BOUNDED_SURFACE_SHAPE_REPRESENTATION('NONE',(#61),#46) ;
#45=UNCERTAINTY_MEASURE_WITH_UNIT(LENGTH_MEASURE(0.005),#41,'distance_accuracy_value','CONFUSED CURVE UNCERTAINTY') ;
#54=LINE('Line',#51,#53) ;
#66=LINE('Line',#63,#65) ;
#75=LINE('Line',#72,#74) ;
#100=LINE('Line',#97,#99) ;
#114=LINE('Line',#111,#113) ;
#131=LINE('Line',#128,#130) ;
#212=LINE('Line',#209,#211) ;
#226=LINE('Line',#223,#225) ;
#245=LINE('Line',#242,#244) ;
#262=LINE('Line',#259,#261) ;
#276=LINE('Line',#273,#275) ;
#305=LINE('Line',#302,#304) ;
#331=LINE('Line',#328,#330) ;
#379=LINE('Line',#376,#378) ;
#384=LINE('Line',#381,#383) ;
#2=MECHANICAL_CONTEXT(' ',#1,'mechanical') ;
#24=PERSONAL_ADDRESS(' ',' ',' ',' ',' ',' ',' ',' ',' ',' ',' ',' ',(#22),' ') ;
#127=PLANE('Plane',#126) ;
#180=PLANE('Plane',#179) ;
#301=PLANE('Plane',#300) ;
#347=PLANE('Plane',#346) ;
#405=PLANE('Plane',#404) ;
#43=PLANE_ANGLE_MEASURE_WITH_UNIT(PLANE_ANGLE_MEASURE(0.0174532925199),#42) ;
#7=PRODUCT_CATEGORY('part',$) ;
#9=PRODUCT_CATEGORY_RELATIONSHIP(' ',' ',#7,#8) ;
#6=PRODUCT_DEFINITION_FORMATION_WITH_SPECIFIED_SOURCE('',' ',#5,.NOT_KNOWN.) ;
#8=PRODUCT_RELATED_PRODUCT_CATEGORY('detail',$,(#5)) ;
#50=SHAPE_DEFINITION_REPRESENTATION(#40,#49) ;
#57=TRIMMED_CURVE('',#54,(#55),(#56),.T.,.CARTESIAN.) ;
#69=TRIMMED_CURVE('',#66,(#67),(#68),.T.,.CARTESIAN.) ;
#78=TRIMMED_CURVE('',#75,(#76),(#77),.T.,.CARTESIAN.) ;
#93=VERTEX_POINT('',#92) ;
#95=VERTEX_POINT('',#94) ;
#102=VERTEX_POINT('',#101) ;
#109=VERTEX_POINT('',#108) ;
#133=VERTEX_POINT('',#132) ;
#135=VERTEX_POINT('',#134) ;
#142=VERTEX_POINT('',#141) ;
#190=VERTEX_POINT('',#189) ;
#192=VERTEX_POINT('',#191) ;
#214=VERTEX_POINT('',#213) ;
#221=VERTEX_POINT('',#220) ;
#240=VERTEX_POINT('',#239) ;
#264=VERTEX_POINT('',#263) ;
#271=VERTEX_POINT('',#270) ;
#307=VERTEX_POINT('',#306) ;
#314=VERTEX_POINT('',#313) ;
#321=VERTEX_POINT('',#320) ;
#353=VERTEX_POINT('',#352) ;
#355=VERTEX_POINT('',#354) ;
#41=(LENGTH_UNIT()NAMED_UNIT(*)SI_UNIT(.MILLI.,.METRE.)) ;
#42=(NAMED_UNIT(*)PLANE_ANGLE_UNIT()SI_UNIT($,.RADIAN.)) ;
#44=(NAMED_UNIT(*)SI_UNIT($,.STERADIAN.)SOLID_ANGLE_UNIT()) ;
#46=(GEOMETRIC_REPRESENTATION_CONTEXT(3)GLOBAL_UNCERTAINTY_ASSIGNED_CONTEXT((#45))GLOBAL_UNIT_ASSIGNED_CONTEXT((#41,#42,#44))REPRESENTATION_CONTEXT(' ',' ')) ;
ENDSEC;
END-ISO-10303-21;
